[Date Prev][Date Next][Thread Prev][Thread Next]

Tab haters delete, *lotsa* Eric's trip.



		Eric's trip tab FAQ part 1
		~~~~~~~~~~~~~~~~~~~~~~~~~~
		~Transcribed by
			Patrick Benny
		~Collected by
			Anne-Paulien Helmond 
		~Compiled by
			Adam Kempa


Feeling Around
--------------
standard tuning 

{1} main riff, verse, outro...
E |-0-------0-------0---0-0-0-------|-0-------0-------0---0-0-0-------|
B |-2-------2-------2---2-2-0-------|-2-------2-------2---2-2-0-------|
G |-2-------2-------2---2-2-2-------|-2-------2-------2---2-2-2-------|
D |-2-------2-------2---2-2-0-------|-2-------2-------2---2-2-0-------|
A |-0-------0-------0---0-0-2-------|-0-------0-------0---0-0-2-------|
E |-x-------0-------x---x-x-x-------|-x-------0-------x---x-x-x-------|

{2} fill...
E |-0---0---0---0---0---0---0---0-0-|-2---2---2---2---2---2---2---2-2-|
B |-1---1---1---1---1---1---1---1-1-|-3---3---3---3---3---3---3---3-3-|
G |-0---0---0---0---0---0---0---0-0-|-2---2---2---2---2---2---2---2-2-|
D |-2---2---2---2---2---2---2---2-2-|-0---0---0---0---0---0---0---0-0-|
A |-3---3---3---3---3---3---3---3-3-|-0---0---0---0---0---0---0---0-0-|
E |-x---x---x---x---x---x---x---x-x-|-x---x---x---x---x---x---x---x-x-|

{3} chorus [feeling all around...]
E |-1---1---1---1---1---1---1---1-1-|-0-------------------------------|
B |-1---1---1---1---1---1---1---1-1-|-2-------------------------------|
G |-2---2---2---2---2---2---2---2-2-|-2-------------------------------|
D |-3---3---3---3---3---3---3---3-3-|-2-------------------------------|
A |-3---3---3---3---3---3---3---3-3-|-0-------------------------------|
E |-x---x---x---x---x---x---x---x-x-|-x-------------------------------|

{4} end of chorus [feeling all still around...]
E |-1---1---1---1---1---1---1---1---|-1---1---1---1---1---1---1---1-1-|
B |-1---1---1---1---1---1---1---1---|-1---1---1---1---1---1---1---1-1-|
G |-2---2---2---2---2---2---2---2---|-2---2---2---2---2---2---2---2-2-|
D |-3---3---3---3---3---3---3---3---|-3---3---3---3---3---3---3---3-3-|
A |-3---3---3---3---3---3---3---3---|-3---3---3---3---3---3---3---3-3-|
E |-x---x---x---x---x---x---x---x---|-x---x---x---x---x---x---x---x-x-|

**SEQUENCE:

1st verse:
{1} {1} {2}
{1} {2}
{1} {1} {2}
{1} {2}
{1}

chorus:
{3} {3} {4}

{1} {1} {2}
{1} {2}

2nd verse:
{1} {1} {2}
{1} {2}
{1} {1} {2}
{1} {2}
{1} 

chorus:
{3} {3} {4}

repeat {1} while fading;

Eric's Trip - Forever Again album (chords)
------------------------------------------
girlfriend

C#,B,(A),B,(A),F#
F#,A,E,B
B,D,F,B

~~

waiting all day

D,[B,A]
G,A,D,B,[A]
G,A,D,B,[d,d,a,d,d,A]

~~

new love
tune down 1/2 step

intro B,(E) <6th string>
verse A,(E),B,(E) <6th string>
chorus D,(A),E,(A) <5th string>

~~

this way out

G,F#
F,E

~~

about you

F,C,G

~~

always there

A

E -1-0---0-
B -----1---

A,C,G,A

~~

december 93

A#,A,D,A#
A,C,A#,A,D,C
G,A,A,G
G,D

~~

view master

C#

B -4--6-4--6-

C#,E,B

~~

cloudy

A,G,F#,G
G,A

~~

my chest is empty
tune down 1/2 step

C,A
A,C,G,F

~~

run away
tune the B string up 1/2 step (to C)

E -7-5-4-7-5-4-7-5-4-7-5-4-7-5-4-0-----4---------------4-----------
C ---------------------------------4-6---6-4-------4-6---6-4-------
G -------------------------------------------6-4-6-----------6-4-6-

D,C#,B,A

~~

waiting for you
tune down 1/2 step

D,B
G,A,D,B,G,A,B
G,A,D,B,G,A,D

~~

let go

G#,A#,B
B,A#,G

~~

forever again

D5,D5/A,D5,D5/A,D5
C5,C5/G,C5,C5/G,C5
G5,D5,F#5(5th string),E5(5th string),D5...


May 11
------
Transcribed by: Sem van Blerkem

Intro:
|------0------0--|  
|------0------0--|  
|------2------2--|  
|------2------2--|  
|--0------0------|  
|----------------| 

Verse:
|------0~~0--0--0--|          |------3~~3--3--3--|     |------0~~0--0--0--|
|------0~~0--0--0--|          |------3~~3--3--3--|     |------1~~1--1--1--|
|------2~~2--2--2--|          |------0~~0--0--0--|     |------2~~2--2--2--|
|------2~~2--2--2--|          |------0~~0--0--0--|     |--3---------------|
|--0---------------|          |------x-----------|     |------------------|
|------------------|          |--3---------------|     |------------------|

Outro
|------0------0--|
|------1------1--|
|------2------2--|
|--3------3------|
|----------------|
|----------------|


More to come (heh, heh)...