[Date Prev][Date Next][Thread Prev][Thread Next]

huevos rancheros!!



                          ************************
                          Heuvos Rancheros TAB/FAQ
                          ************************

Discogrophy (as near as I can tell)

1.  64 slices of americain cheese 7" (Rotoflex)
2.  Cindy with an "S" 7" (Lucky)
3.  Go West Young Bee 7" (Top Drawer)
4.  B-side to M.O.A.M. 7" (Get hip)
5.  Dig in!  CD         (Mint)
6.  Endsville           (?)


"CINDY WITH AN "S""
-------------------

Rythym fig.:
e|-----------------|
B|-----------------|
G|--5--9--3-4-5----|
D|--5--9--3-4-5----|
A|--3--7--1-2-3----|
E|-----------------|

Main fig.:
e|---------------------------------------------------|
B|---------------------------------------------------|
G|---------------------------------------------------|
D|------1---1-3-4-4-4-3-1-3-----1---1----------------|
A|--3-3---3-----------------3-3---3---3-1-1-0-0-1-0--|
E|---------------------------------------------------|

Chorus Fig.:
e|-----------------------------|
B|-----------------------------|
G|-----------------------------|
D|--5--5-5-3--3-3-2--2-2--2-3--|
A|--5--5-5-3--3-3-2--2-2--2-3--|
E|--3--3-3-1--1-1-0--0-0--0-1--|

Solo:
um, no.

*****************************************************************************